quarta-feira, 5 de janeiro de 2011

VOU FAZER PIRRAÇA

Vou Fazer Pirraça

Jorge e Mateus

 Jorge e Mateus
Tom: A
  
(intro) A9 B7 E A9 B7 E B7 A9 E A9 E B7

(solo)


G |------------6---6-8-9-9-9-9-------------------------------|
D |------6-7-9---9-------------------------------------------|
A |--7-9-----------------------------------------------------|
E |----------------------------------------------------------|



E |-12/11----------------------12/11---------------------|
B |-------12-14-12/14/12--------------12-14-12/12/12-----|
G |----------------------13------------------------------|



B |------9/10^-10/10/10/9-----------------9/10^-10/10/10/9-------------------|
G |-9-11-------------------11-9-----9-11--------------------11-9----9-8------|
D |---------------------------------------------------------------------11/9-|


E                      C#m
Vou pagar promessa de joelhos
A                B
Só pra esquecer você
E                      C#m
Vou passar uns dias lá na lua
A                     B
Eu não quero mais te ver

G#m               C#m
Vou falar pro meu coração bater o pé
G#m              C#m
Pra não morrer de paixão não quero
A                   B
Mais este amor, que me faz tão mal
A                    B             E
Chega de sofrer, Adeus, ponto final

(refrão)
                A    B        E
Não vou mais chorar, como chorei
           A           B        E
Nem me lembrar, que um dia te amei
          G#m             C#m
Bye-bye tristeza, adeus solidão
             A      B       E
Vou fazer pirraça pro seu coração

(solo)

(repete tudo)

Nenhum comentário:

Postar um comentário