quarta-feira, 5 de janeiro de 2011

200 POR HORA

200 Por Hora

Jorge e Mateus

 Jorge e Mateus
Tom: G
  

(intro) Em D/F# C Am B7 Em C D 

E|--7/8\7--8-7-8-7-8-7--7/8\7--8-7-8-7-8-10-12-10-12-10-12-10----12-10-12-10-12-8-8/10-8-8-|
B|-----------------------------------------------------------------------------------------|
G|-----------------------------------------------------------------------------------------|
D|-----------------------------------------------------------------------------------------|
A|-----------------------------------------------------------------------------------------|
E|-----------------------------------------------------------------------------------------|

E|-8-8-8-10-8-7-------------10-8-7-8-7--7----------(12)--------------------(7)-----0---2---|
B|------------------------------------10-10-8-10-8-7------(12)-------------(7)-----1---3---|
G|--------------------------------------------------9------------(12)------(7)-----0---2---|
D|-------------------------------------------------------------------------(7)-----2---0---|
A|-------------------------------------------------------------------------(7)-----3---x---|
E|---------------------------------------------------------------------------------x---x---|


     Em
Não dá pra esquecer teus olhos
              D
nem todos os beijos que você me dá,
     C
Não dá pra esquecer o cheiro e o
           G               D
ouro do cabelo a me iluminar,

  Bm
A vida passa tão sem graça
                    C
mas quando você ta perto fica tudo bem
    Em
Eu corro a 200 por hora
                          D
mas se é pra te ver mais cedo
                 G           D
eu posso ir bem mais além

 G                    D/F#
Sofro e morro todo dia
                Em                 C
vivendo essa agonia que me tira a paz
    G              A
Um dia te levo comigo
              C        D        G      D
e de saudades suas eu não choro mais

      G                     D/F#
Quem tem amor assim distante
              Em                C
não tem o bastante pra sobreviver

     G                      A
Pra todo o mal da minha vida
                      C             D        G     D
pra curar qualquer ferida o meu remédio é você

(solo)

(repete tudo)

     G                      A
Pra todo o mal da minha vida
                      C             D        G          C    D    Em
pra curar qualquer ferida o meu remédio é você

Nenhum comentário:

Postar um comentário